Irish Songs Lyrics With Guitar Chords By Martin Dardis

Boolavogue Sheet Music + Tin Whistle Notes

Home
Lyrics + Chords A-B
C - F
G - J
K - M
N - R
S - T
U - Z
The Tin Whistle Song Book With Letter Notes
Sheet Music And Tin Whistle
Tin Whistle Music 2
Learning Tin Whistle
Children's Songs On Tin Whistle
Pop Songs For The Tin Whistle
Christmas Carols For The Tin Whistle
Traditional Whistle Sheet Music
The Dubliners
Christy Moore
Wolfe Tones
Fureys Brothers
Clancy Brothers And Tommy Makem
Pogues
Most Popular Songs
Dublin City Ramblers
Johnny McEvoy
Scottish Songs
Gaeilge Songs
Foster & Allen
Irish Brigade
Country And Pop
Mary Black
Derek Ryan
Eric Bogle
Corries
McCalmans
Saw Doctors
Seamus Moore
Tommy Sands
Colum Sands
Football And Hurling Songs
American Folk And Patriotic Songs
German Songs
Runrig
Charlie And The Bhoys
Big Tom
Nathan Carter Lyrics
Welsh Songs
Other Songs And Resources
Updates
Guestbook
Learn Guitar
Boolavogue Sheet Music And Tin Whistle Notes, a traditional Irish tune about Father Murphy fight in the 1798 rebellion. Boolavogue lyrics + chords . The youtube video will help you learn the tune. I have given two pieces of music for this one. The first is the one I'm using to play in the video. I use a C whistle only because this tune goes very high and I find the C keeps the noise down a little bit. I tried the sheet music with a D whistle and it works also.

boolavogue-sheet-music-key-ofg-major.jpg

Below is another version in  lower key.

Boolavogue Sheet Music Notes
Key Of C Major

I Love Irish Music

E|-----------------------------------------------------------------------------|
A|-------------------0-5---4-2-5---2-0--2--------------------------------------|
D|---0-------0---4-----------------------4----2-0-2---0------------------------|
G|-2-------2---------------------------------------------4---------------------|

E|-----------------------------------------------------------------------------|
A|-------------------0-5---4-2-5---2-0--2--------------------------------------|
D|---0-------0---4-----------------------4----2-0-2---0------------------------|
G|-6-------2-------------------------------------------------------------------|

E|-----------------------------------------------------------------------------|
A|------0-----0---2-4-5----4-2-5---2-0--2--------------------------------------|
D|-24-5-----4----------------------------4----2-0-2---0------------------------|
G|-------------------------------------------------------4---------------------|

E|-----------------------------------------------------------------------------|
A|-------------------0-5---4-2-5---2-0--2--------------------------------------|
D|---0-------0---4-----------------------4----2-0-2---0------------------------|
G|-6-------2-------------------------------------------------------------------|

I Love Irish Music

This is a standard and one of the most popular tunes/song to learn
In the tin whistle. It's one that most Irish players will know and is often
requested at sessions in Ireland. It's a slow air and very popular with beginners
Boolavogue abc music 
D G_D G B D' G'_F' E' G'
E' D'_E' B A G A G E_
F G_D G B D' G'_F' E' G'
E' D'_E' B A G A_G G_
 
D' D'_B D' E' F' G'_F' E' G'
E' D'_E' B A G A_G E_
F G_D G B D' G'_F' E' G'
E' D'_E' B A G A_G G

This one goes very high. It goes all the way to the high G note. Blow harder to get the higher notes.

rsz_1rsz_1rsz_greenwhiteorange2.jpg

Privacy Policy        Links  Copyright  2002 - 2014 Martin Dardis

rsz_1rsz_1rsz_greenwhiteorange2.jpg